  0
SECTION
  2
HEADER
  9
$ACADVER
  1
AC1009
  9
$INSBASE
 10
-4.825885703296904
 20
2.20640819075777
 30
0.0
  9
$EXTMIN
 10
-4.825885703296904
 20
2.20640819075777
 30
0.0
  9
$EXTMAX
 10
299.8258857032968
 20
123.3377724885139
 30
0.0
  9
$LIMMIN
 10
0.0
 20
0.0
  9
$LIMMAX
 10
410.0
 20
287.0
  9
$ORTHOMODE
 70
     0
  9
$REGENMODE
 70
     1
  9
$FILLMODE
 70
     1
  9
$QTEXTMODE
 70
     0
  9
$MIRRTEXT
 70
     1
  9
$DRAGMODE
 70
     2
  9
$LTSCALE
 40
25.0
  9
$OSMODE
 70
     0
  9
$ATTMODE
 70
     1
  9
$TEXTSIZE
 40
3.5
  9
$TRACEWID
 40
1.0
  9
$TEXTSTYLE
  7
STANDARD
  9
$CLAYER
  8
0
  9
$CELTYPE
  6
BYLAYER
  9
$CECOLOR
 62
   256
  9
$DIMSCALE
 40
1.0
  9
$DIMASZ
 40
3.5
  9
$DIMEXO
 40
0.1
  9
$DIMDLI
 40
7.0
  9
$DIMRND
 40
0.0
  9
$DIMDLE
 40
0.0
  9
$DIMEXE
 40
1.8
  9
$DIMTP
 40
0.0
  9
$DIMTM
 40
0.0
  9
$DIMTXT
 40
3.5
  9
$DIMCEN
 40
1.5
  9
$DIMTSZ
 40
0.0
  9
$DIMTOL
 70
     0
  9
$DIMLIM
 70
     0
  9
$DIMTIH
 70
     0
  9
$DIMTOH
 70
     0
  9
$DIMSE1
 70
     0
  9
$DIMSE2
 70
     0
  9
$DIMTAD
 70
     0
  9
$DIMZIN
 70
     0
  9
$DIMBLK
  1

  9
$DIMASO
 70
     1
  9
$DIMSHO
 70
     0
  9
$DIMPOST
  1

  9
$DIMAPOST
  1

  9
$DIMALT
 70
     0
  9
$DIMALTD
 70
     2
  9
$DIMALTF
 40
25.39999999999999
  9
$DIMLFAC
 40
1.0
  9
$DIMTOFL
 70
     0
  9
$DIMTVP
 40
0.0
  9
$DIMTIX
 70
     0
  9
$DIMSOXD
 70
     0
  9
$DIMSAH
 70
     0
  9
$DIMBLK1
  1

  9
$DIMBLK2
  1

  9
$DIMSTYLE
  2
*UNNAMED
  9
$DIMCLRD
 70
     0
  9
$DIMCLRE
 70
     0
  9
$DIMCLRT
 70
     0
  9
$DIMTFAC
 40
1.0
  9
$DIMGAP
 40
0.09
  9
$LUNITS
 70
     2
  9
$LUPREC
 70
     2
  9
$SKETCHINC
 40
1.0
  9
$FILLETRAD
 40
0.0
  9
$AUNITS
 70
     0
  9
$AUPREC
 70
     0
  9
$MENU
  1

  9
$ELEVATION
 40
0.0
  9
$PELEVATION
 40
0.0
  9
$THICKNESS
 40
0.0
  9
$LIMCHECK
 70
     0
  9
$BLIPMODE
 70
     1
  9
$CHAMFERA
 40
0.0
  9
$CHAMFERB
 40
0.0
  9
$SKPOLY
 70
     0
  9
$TDCREATE
 40
2448558.552967476
  9
$TDUPDATE
 40
2449393.437048611
  9
$TDINDWG
 40
0.0009122685
  9
$TDUSRTIMER
 40
0.0009122685
  9
$USRTIMER
 70
     1
  9
$ANGBASE
 50
0.0
  9
$ANGDIR
 70
     0
  9
$PDMODE
 70
     0
  9
$PDSIZE
 40
0.0
  9
$PLINEWID
 40
0.0
  9
$COORDS
 70
     2
  9
$SPLFRAME
 70
     0
  9
$SPLINETYPE
 70
     6
  9
$SPLINESEGS
 70
     8
  9
$ATTDIA
 70
     0
  9
$ATTREQ
 70
     1
  9
$HANDLING
 70
     0
  9
$HANDSEED
  5
EA
  9
$SURFTAB1
 70
     6
  9
$SURFTAB2
 70
     6
  9
$SURFTYPE
 70
     6
  9
$SURFU
 70
     6
  9
$SURFV
 70
     6
  9
$UCSNAME
  2

  9
$UCSORG
 10
0.0
 20
0.0
 30
0.0
  9
$UCSXDIR
 10
1.0
 20
0.0
 30
0.0
  9
$UCSYDIR
 10
0.0
 20
1.0
 30
0.0
  9
$PUCSNAME
  2

  9
$PUCSORG
 10
0.0
 20
0.0
 30
0.0
  9
$PUCSXDIR
 10
1.0
 20
0.0
 30
0.0
  9
$PUCSYDIR
 10
0.0
 20
1.0
 30
0.0
  9
$USERI1
 70
     0
  9
$USERI2
 70
     0
  9
$USERI3
 70
     0
  9
$USERI4
 70
     0
  9
$USERI5
 70
     0
  9
$USERR1
 40
1.0
  9
$USERR2
 40
0.0
  9
$USERR3
 40
0.0
  9
$USERR4
 40
0.0
  9
$USERR5
 40
0.0
  9
$WORLDVIEW
 70
     1
  9
$SHADEDGE
 70
     3
  9
$SHADEDIF
 70
    70
  9
$TILEMODE
 70
     1
  9
$MAXACTVP
 70
    16
  9
$PINSBASE
 10
0.0
 20
0.0
 30
0.0
  9
$PLIMCHECK
 70
     0
  9
$PEXTMIN
 10
1.000000000000000E+20
 20
1.000000000000000E+20
 30
1.000000000000000E+20
  9
$PEXTMAX
 10
-1.000000000000000E+20
 20
-1.000000000000000E+20
 30
-1.000000000000000E+20
  9
$PLIMMIN
 10
0.0
 20
0.0
  9
$PLIMMAX
 10
12.0
 20
9.0
  9
$UNITMODE
 70
     0
  9
$VISRETAIN
 70
     0
  9
$PLINEGEN
 70
     0
  9
$PSLTSCALE
 70
     0
  9
$TREEDEPTH
 70
  3020
  9
$DWGCODEPAGE
  3
undefined
  0
ENDSEC
  0
SECTION
  2
TABLES
  0
TABLE
  2
VPORT
 70
     2
  0
VPORT
  2
*ACTIVE
 70
     0
 10
0.0
 20
0.0
 11
1.0
 21
1.0
 12
147.5
 22
121.6144118141049
 13
0.0
 23
0.0
 14
1.0
 24
1.0
 15
10.0
 25
10.0
 16
0.0
 26
0.0
 36
1.0
 17
0.0
 27
0.0
 37
0.0
 40
238.8160072466942
 41
1.275675675675675
 42
50.0
 43
0.0
 44
0.0
 50
0.0
 51
0.0
 71
     0
 72
 20000
 73
     1
 74
     1
 75
     0
 76
     0
 77
     0
 78
     0
  0
ENDTAB
  0
TABLE
  2
LTYPE
 70
     2
  0
LTYPE
  2
CONTINUOUS
 70
    64
  3
Ausgezogene Linie
 72
    65
 73
     0
 40
0.0
  0
LTYPE
  2
ITEM-STRICHPGR
 70
    64
  3
____ . ____ . ____ . ____ . ____ . ____ . ____
 72
    65
 73
     4
 40
15.0
 49
10.0
 49
-2.5
 49
0.0
 49
-2.5
  0
ENDTAB
  0
TABLE
  2
LAYER
 70
     5
  0
LAYER
  2
0
 70
     0
 62
     7
  6
CONTINUOUS
  0
LAYER
  2
ITEM_50
 70
    64
 62
     7
  6
CONTINUOUS
  0
LAYER
  2
ITEM_25
 70
    64
 62
     3
  6
CONTINUOUS
  0
LAYER
  2
ITEM_HILFE
 70
    64
 62
     3
  6
CONTINUOUS
  0
LAYER
  2
ITEM_STPG
 70
    64
 62
     4
  6
ITEM-STRICHPGR
  0
ENDTAB
  0
TABLE
  2
STYLE
 70
     1
  0
STYLE
  2
STANDARD
 70
     0
 40
0.0
 41
1.0
 50
0.0
 71
     0
 42
3.5
  3
txt
  4

  0
ENDTAB
  0
TABLE
  2
VIEW
 70
     0
  0
ENDTAB
  0
TABLE
  2
UCS
 70
     0
  0
ENDTAB
  0
TABLE
  2
APPID
 70
     1
  0
APPID
  2
ACAD
 70
    64
  0
ENDTAB
  0
TABLE
  2
DIMSTYLE
 70
     0
  0
ENDTAB
  0
ENDSEC
  0
SECTION
  2
BLOCKS
  0
ENDSEC
  0
SECTION
  2
ENTITIES
  0
POINT
  8
ITEM_HILFE
 10
155.0
 20
80.0
 30
0.0
  0
POINT
  8
ITEM_HILFE
 10
152.9999999999999
 20
80.00000000000042
 30
0.0
  0
POINT
  8
ITEM_HILFE
 10
151.4999999999998
 20
80.00000000000071
 30
0.0
  0
LINE
  8
ITEM_50
 10
151.5
 20
49.9999999999855
 30
0.0
 11
153.0
 21
49.9999999999855
 31
0.0
  0
LINE
  8
ITEM_50
 10
153.0
 20
49.9999999999855
 30
0.0
 11
153.0
 21
109.9999999999854
 31
0.0
  0
LINE
  8
ITEM_50
 10
153.0
 20
69.00000000000042
 30
0.0
 11
155.0
 21
69.00000000000042
 31
0.0
  0
LINE
  8
ITEM_50
 10
155.0
 20
69.00000000000042
 30
0.0
 11
155.0
 21
90.99999999999963
 31
0.0
  0
LINE
  8
ITEM_50
 10
155.0
 20
90.99999999999963
 30
0.0
 11
153.0
 21
90.99999999999963
 31
0.0
  0
LINE
  8
ITEM_50
 10
153.0
 20
109.9999999999855
 30
0.0
 11
151.5
 21
109.9999999999855
 31
0.0
  0
ARC
  8
ITEM_50
 10
147.5
 20
115.9999999999969
 30
0.0
 40
4.0
 50
0.0
 51
90.0
  0
LINE
  8
ITEM_50
 10
147.5
 20
119.9999999999969
 30
0.0
 11
143.5
 21
119.9999999999969
 31
0.0
  0
ARC
  8
ITEM_50
 10
143.5
 20
115.9999999999969
 30
0.0
 40
4.0
 50
90.0
 51
180.0
  0
LINE
  8
ITEM_50
 10
139.5
 20
115.9999999999969
 30
0.0
 11
139.5
 21
43.9999999999969
 31
0.0
  0
ARC
  8
ITEM_50
 10
143.5
 20
43.9999999999969
 30
0.0
 40
4.0
 50
180.0
 51
270.0
  0
LINE
  8
ITEM_STPG
 10
137.1603538337158
 20
80.0000000000036
 30
0.0
 11
157.3427819343863
 21
79.99999999999951
 31
0.0
  0
LINE
  8
ITEM_STPG
 10
157.7935918092422
 20
48.00000000000008
 30
0.0
 11
134.2335812857895
 21
48.00000000000008
 31
0.0
  0
LINE
  8
ITEM_STPG
 10
157.7935918092422
 20
112.0
 30
0.0
 11
133.9884323469062
 21
112.0
 31
0.0
  0
POINT
  8
ITEM_HILFE
 10
139.5
 20
48.00000000000008
 30
0.0
  0
POINT
  8
ITEM_HILFE
 10
139.5
 20
80.00000000000315
 30
0.0
  0
POINT
  8
ITEM_HILFE
 10
139.5
 20
112.0
 30
0.0
  0
POINT
  8
ITEM_HILFE
 10
151.4999999999997
 20
112.0
 30
0.0
  0
POINT
  8
ITEM_HILFE
 10
151.5
 20
48.00000000000008
 30
0.0
  0
POINT
  8
ITEM_HILFE
 10
139.500000000003
 20
39.99999999999695
 30
0.0
  0
POINT
  8
ITEM_HILFE
 10
151.5000000000029
 20
39.99999999999695
 30
0.0
  0
POINT
  8
ITEM_HILFE
 10
151.500000000003
 20
119.9999999999969
 30
0.0
  0
POINT
  8
ITEM_HILFE
 10
139.5000000000031
 20
119.9999999999969
 30
0.0
  0
LINE
  8
ITEM_50
 10
143.5
 20
39.9999999999969
 30
0.0
 11
147.5
 21
39.9999999999969
 31
0.0
  0
ARC
  8
ITEM_50
 10
147.5
 20
43.9999999999969
 30
0.0
 40
4.0
 50
270.0
 51
0.0
  0
LINE
  8
ITEM_50
 10
151.5
 20
43.9999999999969
 30
0.0
 11
151.4999999999997
 21
115.9999999999969
 31
0.0
  0
POINT
  8
ITEM_HILFE
 10
295.0000000000031
 20
39.99999999999684
 30
0.0
  0
POINT
  8
ITEM_HILFE
 10
295.0000000000031
 20
119.9999999999968
 30
0.0
  0
POINT
  8
ITEM_HILFE
 10
175.0000000000031
 20
119.9999999999968
 30
0.0
  0
POINT
  8
ITEM_HILFE
 10
175.0000000000031
 20
39.99999999999685
 30
0.0
  0
POINT
  8
ITEM_HILFE
 10
286.7499999999969
 20
80.00000000000312
 30
0.0
  0
POINT
  8
ITEM_HILFE
 10
234.9999999999969
 20
112.0000000000031
 30
0.0
  0
POINT
  8
ITEM_HILFE
 10
252.6776695296515
 20
97.67766952967542
 30
0.0
  0
POINT
  8
ITEM_HILFE
 10
252.6776695296588
 20
62.3223304703377
 30
0.0
  0
POINT
  8
ITEM_HILFE
 10
234.9999999999969
 20
48.00000000000312
 30
0.0
  0
POINT
  8
ITEM_HILFE
 10
234.9999999999969
 20
80.00000000000312
 30
0.0
  0
POINT
  8
ITEM_HILFE
 10
217.3223304703245
 20
62.32233047034844
 30
0.0
  0
POINT
  8
ITEM_HILFE
 10
217.3223304703315
 20
97.67766952966508
 30
0.0
  0
POINT
  8
ITEM_HILFE
 10
183.2499999999968
 20
80.00000000000312
 30
0.0
  0
POINT
  8
ITEM_HILFE
 10
295.0
 20
80.0
 30
0.0
  0
POINT
  8
ITEM_HILFE
 10
235.0
 20
119.9999999999999
 30
0.0
  0
POINT
  8
ITEM_HILFE
 10
235.0
 20
80.0
 30
0.0
  0
POINT
  8
ITEM_HILFE
 10
235.0
 20
40.0
 30
0.0
  0
POINT
  8
ITEM_HILFE
 10
175.0
 20
80.0
 30
0.0
  0
LINE
  8
ITEM_STPG
 10
286.7499999999969
 20
73.70640819076083
 30
0.0
 11
286.7499999999969
 21
85.84230566502617
 31
0.0
  0
LINE
  8
ITEM_STPG
 10
183.2499999999968
 20
73.70640819076083
 30
0.0
 11
183.2499999999968
 21
85.84230566502617
 31
0.0
  0
LINE
  8
ITEM_STPG
 10
235.0
 20
123.3377724885139
 30
0.0
 11
235.0
 21
36.85746563472955
 31
0.0
  0
LINE
  8
ITEM_STPG
 10
169.0120977712454
 20
80.0
 30
0.0
 11
299.8258857032968
 21
80.0
 31
0.0
  0
CIRCLE
  8
ITEM_50
 10
234.9999999999969
 20
80.00000000000312
 30
0.0
 40
20.0
  0
CIRCLE
  8
ITEM_50
 10
234.9999999999969
 20
80.00000000000312
 30
0.0
 40
10.0
  0
CIRCLE
  8
ITEM_50
 10
286.7499999999969
 20
80.00000000000312
 30
0.0
 40
3.325
  0
ARC
  8
ITEM_25
 10
286.7499999999969
 20
80.00000000000312
 30
0.0
 40
3.999999999999985
 50
81.00000000000015
 51
8.999999999999847
  0
CIRCLE
  8
ITEM_50
 10
183.2499999999968
 20
80.00000000000312
 30
0.0
 40
3.325
  0
ARC
  8
ITEM_25
 10
183.2499999999968
 20
80.00000000000312
 30
0.0
 40
3.999999999999988
 50
81.0
 51
8.999999999999847
  0
CIRCLE
  8
ITEM_50
 10
234.9999999999969
 20
48.00000000000312
 30
0.0
 40
2.46
  0
ARC
  8
ITEM_25
 10
234.9999999999969
 20
48.00000000000312
 30
0.0
 40
2.999999999999999
 50
80.99999999999974
 51
9.000000000000254
  0
CIRCLE
  8
ITEM_50
 10
234.9999999999969
 20
112.0000000000031
 30
0.0
 40
2.46
  0
ARC
  8
ITEM_25
 10
234.9999999999969
 20
112.0000000000031
 30
0.0
 40
2.999999999999999
 50
80.99999999999974
 51
9.000000000000254
  0
CIRCLE
  8
ITEM_50
 10
252.6776695296515
 20
97.67766952967542
 30
0.0
 40
2.75
  0
CIRCLE
  8
ITEM_50
 10
217.3223304703315
 20
97.67766952966508
 30
0.0
 40
2.75
  0
CIRCLE
  8
ITEM_50
 10
217.3223304703245
 20
62.32233047034844
 30
0.0
 40
2.75
  0
CIRCLE
  8
ITEM_50
 10
252.6776695296588
 20
62.3223304703377
 30
0.0
 40
2.75
  0
LINE
  8
ITEM_50
 10
175.0
 20
116.0
 30
0.0
 11
175.0
 21
44.0
 31
0.0
  0
ARC
  8
ITEM_50
 10
179.0
 20
44.0
 30
0.0
 40
4.0
 50
180.0
 51
270.0
  0
LINE
  8
ITEM_50
 10
179.0
 20
40.0
 30
0.0
 11
291.0
 21
40.0
 31
0.0
  0
ARC
  8
ITEM_50
 10
291.0
 20
44.0
 30
0.0
 40
4.0
 50
270.0
 51
0.0
  0
LINE
  8
ITEM_50
 10
295.0
 20
44.0
 30
0.0
 11
295.0
 21
116.0
 31
0.0
  0
ARC
  8
ITEM_50
 10
291.0
 20
116.0
 30
0.0
 40
4.0
 50
0.0
 51
90.0
  0
LINE
  8
ITEM_50
 10
291.0
 20
120.0
 30
0.0
 11
179.0
 21
120.0
 31
0.0
  0
ARC
  8
ITEM_50
 10
179.0
 20
116.0
 30
0.0
 40
4.0
 50
90.0
 51
180.0
  0
POINT
  8
ITEM_HILFE
 10
8.250000000003098
 20
79.99999999999681
 30
0.0
  0
POINT
  8
ITEM_HILFE
 10
111.750000000003
 20
79.99999999999681
 30
0.0
  0
POINT
  8
ITEM_HILFE
 10
-0.0000000000031548
 20
120.000000000003
 30
0.0
  0
POINT
  8
ITEM_HILFE
 10
-0.000000000003169
 20
40.00000000000306
 30
0.0
  0
POINT
  8
ITEM_HILFE
 10
119.9999999999968
 20
40.00000000000306
 30
0.0
  0
POINT
  8
ITEM_HILFE
 10
119.9999999999968
 20
120.000000000003
 30
0.0
  0
POINT
  8
ITEM_HILFE
 10
60.00000000000309
 20
47.99999999999681
 30
0.0
  0
POINT
  8
ITEM_HILFE
 10
60.00000000000309
 20
111.9999999999968
 30
0.0
  0
POINT
  8
ITEM_HILFE
 10
42.32233047034114
 20
97.67766952966223
 30
0.0
  0
POINT
  8
ITEM_HILFE
 10
42.32233047034847
 20
62.32233047032445
 30
0.0
  0
POINT
  8
ITEM_HILFE
 10
77.67766952966849
 20
62.3223304703348
 30
0.0
  0
POINT
  8
ITEM_HILFE
 10
77.67766952967545
 20
97.67766952965143
 30
0.0
  0
POINT
  8
ITEM_HILFE
 10
60.0
 20
79.99999999999988
 30
0.0
  0
POINT
  8
ITEM_HILFE
 10
-0.0000000000000142
 20
80.0
 30
0.0
  0
POINT
  8
ITEM_HILFE
 10
60.0
 20
40.0
 30
0.0
  0
POINT
  8
ITEM_HILFE
 10
119.9999999999999
 20
80.0
 30
0.0
  0
POINT
  8
ITEM_HILFE
 10
59.99999999999997
 20
119.9999999999998
 30
0.0
  0
LINE
  8
ITEM_STPG
 10
8.250000000003098
 20
86.29359180923916
 30
0.0
 11
8.250000000003098
 21
74.15769433497382
 31
0.0
  0
LINE
  8
ITEM_STPG
 10
111.7500000000031
 20
86.29359180923916
 30
0.0
 11
111.7500000000031
 21
74.15769433497382
 31
0.0
  0
LINE
  8
ITEM_STPG
 10
60.0
 20
36.66222751148598
 30
0.0
 11
60.0
 21
123.1425343652704
 31
0.0
  0
LINE
  8
ITEM_STPG
 10
125.9879022287545
 20
80.0
 30
0.0
 11
-4.825885703296904
 21
80.0
 31
0.0
  0
ARC
  8
ITEM_50
 10
60.00000000000309
 20
79.99999999999681
 30
0.0
 40
30.0
 50
272.6489395064693
 51
87.35106049353062
  0
ARC
  8
ITEM_50
 10
60.00000000000309
 20
111.9999999999968
 30
0.0
 40
4.5
 50
210.0574467300297
 51
329.9425532699702
  0
ARC
  8
ITEM_50
 10
60.00000000000309
 20
47.99999999999681
 30
0.0
 40
4.5
 50
30.0574467300297
 51
149.9425532699702
  0
CIRCLE
  8
ITEM_50
 10
42.32233047034114
 20
97.67766952966223
 30
0.0
 40
2.75
  0
CIRCLE
  8
ITEM_50
 10
42.32233047034114
 20
97.67766952966223
 30
0.0
 40
5.0
  0
CIRCLE
  8
ITEM_50
 10
77.67766952967545
 20
97.67766952965143
 30
0.0
 40
2.75
  0
CIRCLE
  8
ITEM_50
 10
77.67766952967545
 20
97.67766952965143
 30
0.0
 40
5.0
  0
CIRCLE
  8
ITEM_50
 10
77.67766952966849
 20
62.3223304703348
 30
0.0
 40
2.75
  0
CIRCLE
  8
ITEM_50
 10
77.67766952966849
 20
62.3223304703348
 30
0.0
 40
5.0
  0
CIRCLE
  8
ITEM_50
 10
42.32233047034847
 20
62.32233047032445
 30
0.0
 40
2.75
  0
CIRCLE
  8
ITEM_50
 10
42.32233047034847
 20
62.32233047032445
 30
0.0
 40
5.0
  0
ARC
  8
ITEM_25
 10
60.00000000000309
 20
47.99999999999681
 30
0.0
 40
2.999999999999999
 50
260.9999999999997
 51
189.0000000000002
  0
CIRCLE
  8
ITEM_50
 10
60.00000000000309
 20
47.99999999999681
 30
0.0
 40
2.46
  0
ARC
  8
ITEM_25
 10
60.00000000000309
 20
111.9999999999968
 30
0.0
 40
2.999999999999999
 50
260.9999999999997
 51
189.0000000000002
  0
CIRCLE
  8
ITEM_50
 10
60.00000000000309
 20
111.9999999999968
 30
0.0
 40
2.46
  0
ARC
  8
ITEM_25
 10
111.750000000003
 20
79.99999999999681
 30
0.0
 40
3.999999999999988
 50
261.0
 51
188.9999999999998
  0
CIRCLE
  8
ITEM_50
 10
111.750000000003
 20
79.99999999999681
 30
0.0
 40
3.325
  0
ARC
  8
ITEM_25
 10
8.250000000003098
 20
79.99999999999681
 30
0.0
 40
3.999999999999985
 50
261.0000000000001
 51
188.9999999999998
  0
CIRCLE
  8
ITEM_50
 10
8.250000000003098
 20
79.99999999999681
 30
0.0
 40
3.325
  0
ARC
  8
ITEM_50
 10
60.00000000000309
 20
79.99999999999681
 30
0.0
 40
30.0
 50
92.64893950646936
 51
267.3510604935306
  0
CIRCLE
  8
ITEM_50
 10
60.00000000000309
 20
79.99999999999681
 30
0.0
 40
11.0
  0
CIRCLE
  8
ITEM_50
 10
60.00000000000309
 20
79.99999999999681
 30
0.0
 40
10.0
  0
LINE
  8
ITEM_50
 10
120.0
 20
44.0
 30
0.0
 11
119.9999999999999
 21
115.9999999999998
 31
0.0
  0
ARC
  8
ITEM_50
 10
115.9999999999999
 20
115.9999999999998
 30
0.0
 40
4.0
 50
0.0
 51
90.0
  0
LINE
  8
ITEM_50
 10
115.9999999999999
 20
119.9999999999998
 30
0.0
 11
4.0
 21
119.9999999999998
 31
0.0
  0
ARC
  8
ITEM_50
 10
4.0
 20
115.9999999999998
 30
0.0
 40
4.0
 50
90.0
 51
180.0
  0
LINE
  8
ITEM_50
 10
0.0
 20
115.9999999999998
 30
0.0
 11
-0.0000000000000284
 21
44.0
 31
0.0
  0
ARC
  8
ITEM_50
 10
3.99999999999997
 20
44.0
 30
0.0
 40
3.999999999999999
 50
180.0
 51
270.0
  0
LINE
  8
ITEM_50
 10
3.999999999999971
 20
40.0
 30
0.0
 11
116.0
 21
40.0
 31
0.0
  0
ARC
  8
ITEM_50
 10
116.0
 20
44.0
 30
0.0
 40
4.0
 50
270.0
 51
0.0
  0
POINT
  8
ITEM_HILFE
 10
60.00000000000071
 20
8.500000000000056
 30
0.0
  0
POINT
  8
ITEM_HILFE
 10
60.00000000000036
 20
7.000000000000056
 30
0.0
  0
POINT
  8
ITEM_HILFE
 10
60.0
 20
5.0
 30
0.0
  0
LINE
  8
ITEM_STPG
 10
111.7500000000007
 20
2.20640819075777
 30
0.0
 11
111.7500000000007
 21
26.01156765309372
 31
0.0
  0
LINE
  8
ITEM_STPG
 10
8.250000000000682
 20
2.20640819075777
 30
0.0
 11
8.250000000000682
 21
25.76641871421043
 31
0.0
  0
LINE
  8
ITEM_STPG
 10
60.0000000000036
 20
22.83964616628418
 30
0.0
 11
59.99999999999951
 21
2.657218065613619
 31
0.0
  0
ARC
  8
ITEM_50
 10
4.000000000003098
 20
16.5
 30
0.0
 40
4.0
 50
90.0
 51
180.0
  0
LINE
  8
ITEM_50
 10
116.0000000000031
 20
20.5
 30
0.0
 11
4.000000000003098
 21
20.5
 31
0.0
  0
ARC
  8
ITEM_50
 10
116.0000000000031
 20
16.5
 30
0.0
 40
4.0
 50
0.0
 51
90.0
  0
LINE
  8
ITEM_50
 10
120.0000000000031
 20
12.5
 30
0.0
 11
120.0000000000031
 21
16.5
 31
0.0
  0
ARC
  8
ITEM_50
 10
116.0000000000031
 20
12.5
 30
0.0
 40
4.0
 50
270.0
 51
0.0
  0
LINE
  8
ITEM_50
 10
89.99999999998547
 20
7.0
 30
0.0
 11
89.99999999998547
 21
8.5
 31
0.0
  0
LINE
  8
ITEM_50
 10
70.99999999999963
 20
5.0
 30
0.0
 11
70.99999999999963
 21
7.0
 31
0.0
  0
LINE
  8
ITEM_50
 10
49.00000000000039
 20
5.0
 30
0.0
 11
70.99999999999963
 21
5.0
 31
0.0
  0
LINE
  8
ITEM_50
 10
49.00000000000039
 20
7.0
 30
0.0
 11
49.00000000000039
 21
5.0
 31
0.0
  0
LINE
  8
ITEM_50
 10
29.99999999998547
 20
7.0
 30
0.0
 11
89.99999999998544
 21
7.0
 31
0.0
  0
LINE
  8
ITEM_50
 10
29.99999999998547
 20
8.5
 30
0.0
 11
29.99999999998547
 21
7.0
 31
0.0
  0
POINT
  8
ITEM_HILFE
 10
8.25000000000071
 20
8.5
 30
0.0
  0
POINT
  8
ITEM_HILFE
 10
8.25000000000071
 20
20.5
 30
0.0
  0
POINT
  8
ITEM_HILFE
 10
60.00000000000315
 20
20.5
 30
0.0
  0
POINT
  8
ITEM_HILFE
 10
111.7500000000007
 20
20.5
 30
0.0
  0
POINT
  8
ITEM_HILFE
 10
111.7500000000007
 20
8.500000000000227
 30
0.0
  0
POINT
  8
ITEM_HILFE
 10
0.000000000009436
 20
8.49999999999693
 30
0.0
  0
POINT
  8
ITEM_HILFE
 10
0.000000000009436
 20
20.49999999999681
 30
0.0
  0
POINT
  8
ITEM_HILFE
 10
120.0000000000094
 20
8.49999999999693
 30
0.0
  0
POINT
  8
ITEM_HILFE
 10
120.0000000000094
 20
20.49999999999681
 30
0.0
  0
LINE
  8
ITEM_50
 10
0.000000000003098
 20
16.5
 30
0.0
 11
0.000000000003098
 21
12.5
 31
0.0
  0
ARC
  8
ITEM_50
 10
4.000000000003098
 20
12.5
 30
0.0
 40
4.0
 50
180.0
 51
270.0
  0
LINE
  8
ITEM_50
 10
4.000000000003098
 20
8.5
 30
0.0
 11
116.0000000000031
 21
8.500000000000227
 31
0.0
  0
ENDSEC
  0
EOF
